ISO-10303-21;
HEADER;
FILE_DESCRIPTION (( 'STEP AP203' ),
    '1' );
FILE_NAME ('Ãèëüçà ìåäíàÿ GT-50-11 (ÃÌ) EKF.STEP',
    '2017-01-10T16:21:37',
    ( 'kuryshev' ),
    ( '' ),
    'SwSTEP 2.0',
    'SolidWorks 2010',
    '' );
FILE_SCHEMA (( 'CONFIG_CONTROL_DESIGN' ));
ENDSEC;

DATA;
#1 = AXIS2_PLACEMENT_3D ( 'NONE', #317, #330, #331 ) ;
#2 = EDGE_CURVE ( 'NONE', #328, #329, #295, .T. ) ;
#3 = EDGE_CURVE ( 'NONE', #329, #328, #294, .T. ) ;
#4 = EDGE_CURVE ( 'NONE', #323, #322, #292, .T. ) ;
#5 = EDGE_CURVE ( 'NONE', #96, #324, #293, .T. ) ;
#6 = AXIS2_PLACEMENT_3D ( 'NONE', #332, #334, #335 ) ;
#7 = EDGE_CURVE ( 'NONE', #95, #96, #189, .T. ) ;
#8 = EDGE_CURVE ( 'NONE', #324, #325, #193, .T. ) ;
#9 = AXIS2_PLACEMENT_3D ( 'NONE', #104, #110, #111 ) ;
#10 = EDGE_CURVE ( 'NONE', #315, #318, #186, .T. ) ;
#11 = EDGE_CURVE ( 'NONE', #326, #327, #180, .T. ) ;
#12 = EDGE_CURVE ( 'NONE', #96, #95, #282, .T. ) ;
#13 = EDGE_CURVE ( 'NONE', #318, #315, #264, .T. ) ;
#14 = EDGE_CURVE ( 'NONE', #322, #323, #228, .T. ) ;
#15 = EDGE_CURVE ( 'NONE', #327, #326, #254, .T. ) ;
#16 = EDGE_CURVE ( 'NONE', #325, #324, #253, .T. ) ;
#17 = EDGE_CURVE ( 'NONE', #322, #324, #217, .T. ) ;
#18 = EDGE_CURVE ( 'NONE', #329, #96, #251, .T. ) ;
#19 = EDGE_CURVE ( 'NONE', #326, #318, #227, .T. ) ;
#20 = EDGE_CURVE ( 'NONE', #95, #325, #214, .T. ) ;
#21 = EDGE_CURVE ( 'NONE', #328, #95, #229, .T. ) ;
#22 = ADVANCED_FACE ( 'NONE', ( #262 ), #291, .T. ) ;
#23 = ADVANCED_FACE ( 'NONE', ( #194 ), #232, .F. ) ;
#24 = ADVANCED_FACE ( 'NONE', ( #259 ), #235, .T. ) ;
#25 = DESIGN_CONTEXT ( 'detailed design', #66, 'design' ) ;
#26 = PRODUCT_DEFINITION_SHAPE ( 'NONE', 'NONE',  #41 ) ;
#27 = AXIS2_PLACEMENT_3D ( 'NONE', #112, #113, #114 ) ;
#28 = AXIS2_PLACEMENT_3D ( 'NONE', #100, #101, #102 ) ;
#29 = AXIS2_PLACEMENT_3D ( 'NONE', #121, #119, #125 ) ;
#30 = AXIS2_PLACEMENT_3D ( 'NONE', #59, #60, #61 ) ;
#31 = AXIS2_PLACEMENT_3D ( 'NONE', #130, #129, #128 ) ;
#32 = AXIS2_PLACEMENT_3D ( 'NONE', #155, #158, #159 ) ;
#33 = AXIS2_PLACEMENT_3D ( 'NONE', #133, #132, #127 ) ;
#34 = AXIS2_PLACEMENT_3D ( 'NONE', #135, #138, #139 ) ;
#35 = AXIS2_PLACEMENT_3D ( 'NONE', #131, #134, #137 ) ;
#36 = AXIS2_PLACEMENT_3D ( 'NONE', #143, #142, #140 ) ;
#37 = AXIS2_PLACEMENT_3D ( 'NONE', #146, #145, #148 ) ;
#38 = AXIS2_PLACEMENT_3D ( 'NONE', #149, #151, #152 ) ;
#39 = AXIS2_PLACEMENT_3D ( 'NONE', #162, #161, #164 ) ;
#40 = CC_DESIGN_PERSON_AND_ORGANIZATION_ASSIGNMENT ( #244, #65, ( #320 ) ) ;
#41 = PRODUCT_DEFINITION ( 'UNKNOWN', '', #46, #25 ) ;
#42 = APPROVAL ( #68, 'UNSPECIFIED' ) ;
#43 = CC_DESIGN_APPROVAL ( #42, ( #41 ) ) ;
#44 = CC_DESIGN_PERSON_AND_ORGANIZATION_ASSIGNMENT ( #225, #70, ( #41 ) ) ;
#45 = CC_DESIGN_DATE_AND_TIME_ASSIGNMENT ( #222, #71, ( #41 ) ) ;
#46 = PRODUCT_DEFINITION_FORMATION_WITH_SPECIFIED_SOURCE ( 'ANY', '', #320, .NOT_KNOWN. ) ;
#47 = APPROVAL ( #72, 'UNSPECIFIED' ) ;
#48 = CC_DESIGN_APPROVAL ( #47, ( #46 ) ) ;
#49 = CC_DESIGN_PERSON_AND_ORGANIZATION_ASSIGNMENT ( #181, #74, ( #46 ) ) ;
#50 = CC_DESIGN_PERSON_AND_ORGANIZATION_ASSIGNMENT ( #177, #75, ( #46 ) ) ;
#51 = SECURITY_CLASSIFICATION ( '', '', #76 ) ;
#52 = CC_DESIGN_PERSON_AND_ORGANIZATION_ASSIGNMENT ( #190, #77, ( #51 ) ) ;
#53 = CC_DESIGN_DATE_AND_TIME_ASSIGNMENT ( #218, #78, ( #51 ) ) ;
#54 = APPROVAL ( #79, 'UNSPECIFIED' ) ;
#55 = CC_DESIGN_APPROVAL ( #54, ( #51 ) ) ;
#56 = CC_DESIGN_SECURITY_CLASSIFICATION ( #51, ( #46 ) ) ;
#57 = PRODUCT_RELATED_PRODUCT_CATEGORY ( 'detail', '', ( #320 ) ) ;
#58 =( NAMED_UNIT ( * ) SI_UNIT ( $, .STERADIAN. ) SOLID_ANGLE_UNIT ( ) );
#59 = CARTESIAN_POINT ( 'NONE',  ( 0.0000000000000000000, 0.0000000000000000000, 0.0000000000000000000 ) ) ;
#60 = DIRECTION ( 'NONE',  ( 0.0000000000000000000, 0.0000000000000000000, 1.000000000000000000 ) ) ;
#61 = DIRECTION ( 'NONE',  ( 1.000000000000000000, 0.0000000000000000000, 0.0000000000000000000 ) ) ;
#62 = APPLICATION_CONTEXT ( 'configuration controlled 3d designs of mechanical parts and assemblies' ) ;
#63 = APPLICATION_PROTOCOL_DEFINITION ( 'international standard', 'config_control_design', 1994, #62 ) ;
#64 = MECHANICAL_CONTEXT ( 'NONE', #62, 'mechanical' ) ;
#65 = PERSON_AND_ORGANIZATION_ROLE ( 'design_owner' ) ;
#66 = APPLICATION_CONTEXT ( 'configuration controlled 3d designs of mechanical parts and assemblies' ) ;
#67 = APPLICATION_PROTOCOL_DEFINITION ( 'international standard', 'config_control_design', 1994, #66 ) ;
#68 = APPROVAL_STATUS ( 'not_yet_approved' ) ;
#69 = APPROVAL_ROLE ( '' ) ;
#70 = PERSON_AND_ORGANIZATION_ROLE ( 'creator' ) ;
#71 = DATE_TIME_ROLE ( 'creation_date' ) ;
#72 = APPROVAL_STATUS ( 'not_yet_approved' ) ;
#73 = APPROVAL_ROLE ( '' ) ;
#74 = PERSON_AND_ORGANIZATION_ROLE ( 'creator' ) ;
#75 = PERSON_AND_ORGANIZATION_ROLE ( 'design_supplier' ) ;
#76 = SECURITY_CLASSIFICATION_LEVEL ( 'unclassified' ) ;
#77 = PERSON_AND_ORGANIZATION_ROLE ( 'classification_officer' ) ;
#78 = DATE_TIME_ROLE ( 'classification_date' ) ;
#79 = APPROVAL_STATUS ( 'not_yet_approved' ) ;
#80 = APPROVAL_ROLE ( '' ) ;
#81 = ADVANCED_FACE ( 'NONE', ( #215, #234 ), #136, .F. ) ;
#82 = ADVANCED_FACE ( 'NONE', ( #231 ), #276, .T. ) ;
#83 = ADVANCED_FACE ( 'NONE', ( #236 ), #273, .F. ) ;
#84 = ADVANCED_FACE ( 'NONE', ( #233 ), #275, .T. ) ;
#85 = ADVANCED_FACE ( 'NONE', ( #238 ), #271, .T. ) ;
#86 = AXIS2_PLACEMENT_3D ( 'NONE', #341, #347, #348 ) ;
#87 = AXIS2_PLACEMENT_3D ( 'NONE', #349, #98, #99 ) ;
#88 = EDGE_CURVE ( 'NONE', #323, #325, #270, .T. ) ;
#89 = AXIS2_PLACEMENT_3D ( 'NONE', #316, #336, #337 ) ;
#90 = AXIS2_PLACEMENT_3D ( 'NONE', #340, #342, #343 ) ;
#91 = EDGE_CURVE ( 'NONE', #327, #315, #237, .T. ) ;
#92 = AXIS2_PLACEMENT_3D ( 'NONE', #338, #344, #345 ) ;
#93 = AXIS2_PLACEMENT_3D ( 'NONE', #103, #105, #106 ) ;
#94 = ADVANCED_FACE ( 'NONE', ( #274, #269 ), #157, .T. ) ;
#95 = VERTEX_POINT ( 'NONE', #150 ) ;
#96 = VERTEX_POINT ( 'NONE', #147 ) ;
#97 = AXIS2_PLACEMENT_3D ( 'NONE', #346, #107, #108 ) ;
#98 = DIRECTION ( 'NONE',  ( 0.0000000000000000000, 0.0000000000000000000, 1.000000000000000000 ) ) ;
#99 = DIRECTION ( 'NONE',  ( 1.000000000000000000, 0.0000000000000000000, 0.0000000000000000000 ) ) ;
#100 = CARTESIAN_POINT ( 'NONE',  ( 0.0000000000000000000, 0.0000000000000000000, 49.50000000000000000 ) ) ;
#101 = DIRECTION ( 'NONE',  ( 0.0000000000000000000, 0.0000000000000000000, -1.000000000000000000 ) ) ;
#102 = DIRECTION ( 'NONE',  ( 1.000000000000000000, 0.0000000000000000000, 0.0000000000000000000 ) ) ;
#103 = CARTESIAN_POINT ( 'NONE',  ( 0.0000000000000000000, 0.0000000000000000000, 0.0000000000000000000 ) ) ;
#104 = CARTESIAN_POINT ( 'NONE',  ( 0.0000000000000000000, 0.0000000000000000000, 50.00000000000000000 ) ) ;
#105 = DIRECTION ( 'NONE',  ( 0.0000000000000000000, 0.0000000000000000000, 1.000000000000000000 ) ) ;
#106 = DIRECTION ( 'NONE',  ( 1.000000000000000000, 0.0000000000000000000, 0.0000000000000000000 ) ) ;
#107 = DIRECTION ( 'NONE',  ( -0.0000000000000000000, -0.0000000000000000000, -1.000000000000000000 ) ) ;
#108 = DIRECTION ( 'NONE',  ( 1.000000000000000000, 0.0000000000000000000, 0.0000000000000000000 ) ) ;
#109 = CARTESIAN_POINT ( 'NONE',  ( -6.500000000000005300, 0.0000000000000000000, 50.00000000000000000 ) ) ;
#110 = DIRECTION ( 'NONE',  ( 0.0000000000000000000, 0.0000000000000000000, 1.000000000000000000 ) ) ;
#111 = DIRECTION ( 'NONE',  ( 1.000000000000000000, 0.0000000000000000000, 0.0000000000000000000 ) ) ;
#112 = CARTESIAN_POINT ( 'NONE',  ( 0.0000000000000000000, 0.0000000000000000000, 0.5000000000000004400 ) ) ;
#113 = DIRECTION ( 'NONE',  ( -0.0000000000000000000, -0.0000000000000000000, 1.000000000000000000 ) ) ;
#114 = DIRECTION ( 'NONE',  ( 1.000000000000000000, 0.0000000000000000000, 0.0000000000000000000 ) ) ;
#115 = CARTESIAN_POINT ( 'NONE',  ( 6.500000000000005300, 7.960204194457803400E-016, 50.00000000000000000 ) ) ;
#116 = CARTESIAN_POINT ( 'NONE',  ( -6.999999999999999100, 8.572527594031472200E-016, 0.5000000000000004400 ) ) ;
#117 = DIRECTION ( 'NONE',  ( -0.7071067811865469100, 8.659560562354927900E-017, 0.7071067811865482400 ) ) ;
#118 = CARTESIAN_POINT ( 'NONE',  ( -5.499999999999998200, 0.0000000000000000000, 50.00000000000000000 ) ) ;
#119 = DIRECTION ( 'NONE',  ( -0.0000000000000000000, -0.0000000000000000000, 1.000000000000000000 ) ) ;
#120 = DIRECTION ( 'NONE',  ( -0.7071067811865426900, 0.0000000000000000000, -0.7071067811865524600 ) ) ;
#121 = CARTESIAN_POINT ( 'NONE',  ( 0.0000000000000000000, 0.0000000000000000000, 0.5000000000000004400 ) ) ;
#122 = DIRECTION ( 'NONE',  ( -0.0000000000000000000, -0.0000000000000000000, -1.000000000000000000 ) ) ;
#123 = CARTESIAN_POINT ( 'NONE',  ( 6.999999999999999100, 8.572527594031472200E-016, 50.00000000000000000 ) ) ;
#124 = DIRECTION ( 'NONE',  ( -0.0000000000000000000, -0.0000000000000000000, -1.000000000000000000 ) ) ;
#125 = DIRECTION ( 'NONE',  ( 1.000000000000000000, 0.0000000000000000000, 0.0000000000000000000 ) ) ;
#126 = DIRECTION ( 'NONE',  ( 0.7071067811865426900, 8.659560562354874900E-017, -0.7071067811865524600 ) ) ;
#127 = DIRECTION ( 'NONE',  ( -1.000000000000000000, 0.0000000000000000000, 0.0000000000000000000 ) ) ;
#128 = DIRECTION ( 'NONE',  ( -1.000000000000000000, 0.0000000000000000000, 0.0000000000000000000 ) ) ;
#129 = DIRECTION ( 'NONE',  ( -0.0000000000000000000, -0.0000000000000000000, -1.000000000000000000 ) ) ;
#130 = CARTESIAN_POINT ( 'NONE',  ( 0.0000000000000000000, 0.0000000000000000000, 50.00000000000000000 ) ) ;
#131 = CARTESIAN_POINT ( 'NONE',  ( 0.0000000000000000000, 0.0000000000000000000, 50.00000000000000000 ) ) ;
#132 = DIRECTION ( 'NONE',  ( -0.0000000000000000000, -0.0000000000000000000, -1.000000000000000000 ) ) ;
#133 = CARTESIAN_POINT ( 'NONE',  ( 0.0000000000000000000, 0.0000000000000000000, 50.00000000000000000 ) ) ;
#134 = DIRECTION ( 'NONE',  ( -0.0000000000000000000, -0.0000000000000000000, -1.000000000000000000 ) ) ;
#135 = CARTESIAN_POINT ( 'NONE',  ( 0.0000000000000000000, 0.0000000000000000000, 0.0000000000000000000 ) ) ;
#136 = PLANE ( 'NONE',  #34 ) ;
#137 = DIRECTION ( 'NONE',  ( -1.000000000000000000, 0.0000000000000000000, 0.0000000000000000000 ) ) ;
#138 = DIRECTION ( 'NONE',  ( 0.0000000000000000000, 0.0000000000000000000, 1.000000000000000000 ) ) ;
#139 = DIRECTION ( 'NONE',  ( 1.000000000000000000, 0.0000000000000000000, -0.0000000000000000000 ) ) ;
#140 = DIRECTION ( 'NONE',  ( -1.000000000000000000, 0.0000000000000000000, 0.0000000000000000000 ) ) ;
#141 =( NAMED_UNIT ( * ) PLANE_ANGLE_UNIT ( ) SI_UNIT ( $, .RADIAN. ) );
#142 = DIRECTION ( 'NONE',  ( -0.0000000000000000000, -0.0000000000000000000, -1.000000000000000000 ) ) ;
#143 = CARTESIAN_POINT ( 'NONE',  ( 0.0000000000000000000, 0.0000000000000000000, 50.00000000000000000 ) ) ;
#144 = CARTESIAN_POINT ( 'NONE',  ( 6.999999999999999100, 0.0000000000000000000, 0.5000000000000004400 ) ) ;
#145 = DIRECTION ( 'NONE',  ( -0.0000000000000000000, -0.0000000000000000000, 1.000000000000000000 ) ) ;
#146 = CARTESIAN_POINT ( 'NONE',  ( 0.0000000000000000000, 0.0000000000000000000, 0.5000000000000004400 ) ) ;
#147 = CARTESIAN_POINT ( 'NONE',  ( -6.999999999999999100, 0.0000000000000000000, 49.50000000000000000 ) ) ;
#148 = DIRECTION ( 'NONE',  ( 1.000000000000000000, 0.0000000000000000000, 0.0000000000000000000 ) ) ;
#149 = CARTESIAN_POINT ( 'NONE',  ( 0.0000000000000000000, 0.0000000000000000000, 50.00000000000000000 ) ) ;
#150 = CARTESIAN_POINT ( 'NONE',  ( 6.999999999999999100, 8.572527594031472200E-016, 49.50000000000000000 ) ) ;
#151 = DIRECTION ( 'NONE',  ( 0.0000000000000000000, 0.0000000000000000000, -1.000000000000000000 ) ) ;
#152 = DIRECTION ( 'NONE',  ( -1.000000000000000000, 0.0000000000000000000, 0.0000000000000000000 ) ) ;
#153 = DIRECTION ( 'NONE',  ( 0.7071067811865469100, 0.0000000000000000000, 0.7071067811865482400 ) ) ;
#154 = CARTESIAN_POINT ( 'NONE',  ( 5.499999999999998200, 6.735557395310440100E-016, 50.00000000000000000 ) ) ;
#155 = CARTESIAN_POINT ( 'NONE',  ( 0.0000000000000000000, 0.0000000000000000000, 50.00000000000000000 ) ) ;
#156 = DIRECTION ( 'NONE',  ( -0.0000000000000000000, -0.0000000000000000000, -1.000000000000000000 ) ) ;
#157 = PLANE ( 'NONE',  #32 ) ;
#158 = DIRECTION ( 'NONE',  ( 0.0000000000000000000, 0.0000000000000000000, 1.000000000000000000 ) ) ;
#159 = DIRECTION ( 'NONE',  ( 1.000000000000000000, 0.0000000000000000000, -0.0000000000000000000 ) ) ;
#160 = CARTESIAN_POINT ( 'NONE',  ( -5.499999999999998200, 0.0000000000000000000, 50.00000000000000000 ) ) ;
#161 = DIRECTION ( 'NONE',  ( 0.0000000000000000000, 0.0000000000000000000, -1.000000000000000000 ) ) ;
#162 = CARTESIAN_POINT ( 'NONE',  ( 0.0000000000000000000, 0.0000000000000000000, 50.00000000000000000 ) ) ;
#163 = CARTESIAN_POINT ( 'NONE',  ( 5.499999999999998200, 6.735557395310440100E-016, 0.0000000000000000000 ) ) ;
#164 = DIRECTION ( 'NONE',  ( -1.000000000000000000, 0.0000000000000000000, 0.0000000000000000000 ) ) ;
#165 =( LENGTH_UNIT ( ) NAMED_UNIT ( * ) SI_UNIT ( .MILLI., .METRE. ) );
#166 = CARTESIAN_POINT ( 'NONE',  ( -6.500000000000000000, 8.266365894244633300E-016, 0.0000000000000000000 ) ) ;
#167 = CARTESIAN_POINT ( 'NONE',  ( -6.999999999999999100, 0.0000000000000000000, 0.5000000000000004400 ) ) ;
#168 = CARTESIAN_POINT ( 'NONE',  ( -5.499999999999998200, 0.0000000000000000000, 0.0000000000000000000 ) ) ;
#169 = CARTESIAN_POINT ( 'NONE',  ( 6.500000000000000000, 0.0000000000000000000, 0.0000000000000000000 ) ) ;
#170 = CARTESIAN_POINT ( 'NONE',  ( 6.999999999999999100, 8.572527594031472200E-016, 0.5000000000000004400 ) ) ;
#171 = CARTESIAN_POINT ( 'NONE',  ( 5.499999999999998200, 6.735557395310440100E-016, 50.00000000000000000 ) ) ;
#172 = CARTESIAN_POINT ( 'NONE',  ( 6.500000000000005300, 8.266365894244637300E-016, 50.00000000000000000 ) ) ;
#173 = CARTESIAN_POINT ( 'NONE',  ( -6.500000000000005300, 0.0000000000000000000, 50.00000000000000000 ) ) ;
#174 = UNCERTAINTY_MEASURE_WITH_UNIT (LENGTH_MEASURE( 1.000000000000000100E-005 ), #165, 'distance_accuracy_value', 'NONE');
#175 = ADVANCED_BREP_SHAPE_REPRESENTATION ( 'Ãèëüçà ìåäíàÿ GT-50-11 (ÃÌ) EKF', ( #319, #30 ), #266 ) ;
#176 = ADVANCED_FACE ( 'NONE', ( #195 ), #267, .T. ) ;
#177 = PERSON_AND_ORGANIZATION ( #321, #242 ) ;
#178 = CALENDAR_DATE ( 2017, 10, 1 ) ;
#179 = ORIENTED_EDGE ( 'NONE', *, *, #8, .F. ) ;
#180 = CIRCLE ( 'NONE', #87, 5.499999999999998200 ) ;
#181 = PERSON_AND_ORGANIZATION ( #321, #242 ) ;
#182 = PERSON_AND_ORGANIZATION ( #321, #242 ) ;
#183 = EDGE_LOOP ( 'NONE', ( #287, #198, #199, #204 ) ) ;
#184 = ORIENTED_EDGE ( 'NONE', *, *, #4, .F. ) ;
#185 = ORIENTED_EDGE ( 'NONE', *, *, #12, .T. ) ;
#186 = CIRCLE ( 'NONE', #86, 5.499999999999998200 ) ;
#187 = ORIENTED_EDGE ( 'NONE', *, *, #17, .F. ) ;
#188 = ORIENTED_EDGE ( 'NONE', *, *, #16, .T. ) ;
#189 = CIRCLE ( 'NONE', #90, 6.999999999999999100 ) ;
#190 = PERSON_AND_ORGANIZATION ( #321, #242 ) ;
#191 = ORIENTED_EDGE ( 'NONE', *, *, #5, .F. ) ;
#192 = DATE_AND_TIME ( #178, #196 ) ;
#193 = CIRCLE ( 'NONE', #92, 6.999999999999999100 ) ;
#194 = FACE_OUTER_BOUND ( 'NONE', #304, .T. ) ;
#195 = FACE_OUTER_BOUND ( 'NONE', #183, .T. ) ;
#196 = LOCAL_TIME ( 19, 21, 37.00000000000000000, #210 ) ;
#197 = ORIENTED_EDGE ( 'NONE', *, *, #88, .F. ) ;
#198 = ORIENTED_EDGE ( 'NONE', *, *, #21, .T. ) ;
#199 = ORIENTED_EDGE ( 'NONE', *, *, #12, .F. ) ;
#200 = ORIENTED_EDGE ( 'NONE', *, *, #21, .F. ) ;
#201 = ORIENTED_EDGE ( 'NONE', *, *, #14, .T. ) ;
#202 = ORIENTED_EDGE ( 'NONE', *, *, #17, .T. ) ;
#203 = ORIENTED_EDGE ( 'NONE', *, *, #14, .F. ) ;
#204 = ORIENTED_EDGE ( 'NONE', *, *, #18, .F. ) ;
#205 = ORIENTED_EDGE ( 'NONE', *, *, #7, .T. ) ;
#206 = ORIENTED_EDGE ( 'NONE', *, *, #13, .F. ) ;
#207 = CALENDAR_DATE ( 2017, 10, 1 ) ;
#208 = ORIENTED_EDGE ( 'NONE', *, *, #10, .T. ) ;
#209 = ORIENTED_EDGE ( 'NONE', *, *, #88, .T. ) ;
#210 = COORDINATED_UNIVERSAL_TIME_OFFSET ( 3, 0, .AHEAD. ) ;
#211 = COORDINATED_UNIVERSAL_TIME_OFFSET ( 3, 0, .AHEAD. ) ;
#212 = LOCAL_TIME ( 19, 21, 37.00000000000000000, #211 ) ;
#213 = APPROVAL_DATE_TIME ( #192, #47 ) ;
#214 = LINE ( 'NONE', #123, #261 ) ;
#215 = FACE_OUTER_BOUND ( 'NONE', #285, .T. ) ;
#216 = ORIENTED_EDGE ( 'NONE', *, *, #19, .F. ) ;
#217 = LINE ( 'NONE', #116, #296 ) ;
#218 = DATE_AND_TIME ( #207, #212 ) ;
#219 = PERSON_AND_ORGANIZATION ( #321, #242 ) ;
#220 = APPROVAL_PERSON_ORGANIZATION ( #182, #47, #73 ) ;
#221 = CALENDAR_DATE ( 2017, 10, 1 ) ;
#222 = DATE_AND_TIME ( #221, #223 ) ;
#223 = LOCAL_TIME ( 19, 21, 37.00000000000000000, #224 ) ;
#224 = COORDINATED_UNIVERSAL_TIME_OFFSET ( 3, 0, .AHEAD. ) ;
#225 = PERSON_AND_ORGANIZATION ( #321, #242 ) ;
#226 = ORIENTED_EDGE ( 'NONE', *, *, #20, .F. ) ;
#227 = LINE ( 'NONE', #118, #230 ) ;
#228 = CIRCLE ( 'NONE', #97, 6.500000000000000000 ) ;
#229 = LINE ( 'NONE', #115, #260 ) ;
#230 = VECTOR ( 'NONE', #122, 1000.000000000000000 ) ;
#231 = FACE_OUTER_BOUND ( 'NONE', #301, .T. ) ;
#232 = CYLINDRICAL_SURFACE ( 'NONE', #31, 5.499999999999998200 ) ;
#233 = FACE_OUTER_BOUND ( 'NONE', #299, .T. ) ;
#234 = FACE_BOUND ( 'NONE', #298, .T. ) ;
#235 = CYLINDRICAL_SURFACE ( 'NONE', #33, 6.999999999999999100 ) ;
#236 = FACE_OUTER_BOUND ( 'NONE', #302, .T. ) ;
#237 = LINE ( 'NONE', #154, #272 ) ;
#238 = FACE_OUTER_BOUND ( 'NONE', #297, .T. ) ;
#239 = ORIENTED_EDGE ( 'NONE', *, *, #91, .T. ) ;
#240 = ORIENTED_EDGE ( 'NONE', *, *, #16, .F. ) ;
#241 = EDGE_LOOP ( 'NONE', ( #185, #284, #188, #191 ) ) ;
#242 = ORGANIZATION ( 'UNSPECIFIED', 'UNSPECIFIED', '' ) ;
#243 = ORIENTED_EDGE ( 'NONE', *, *, #11, .T. ) ;
#244 = PERSON_AND_ORGANIZATION ( #321, #242 ) ;
#245 = PERSON_AND_ORGANIZATION ( #321, #242 ) ;
#246 = APPROVAL_PERSON_ORGANIZATION ( #245, #42, #69 ) ;
#247 = COORDINATED_UNIVERSAL_TIME_OFFSET ( 3, 0, .AHEAD. ) ;
#248 = LOCAL_TIME ( 19, 21, 37.00000000000000000, #247 ) ;
#249 = CALENDAR_DATE ( 2017, 10, 1 ) ;
#250 = DATE_AND_TIME ( #249, #248 ) ;
#251 = LINE ( 'NONE', #109, #255 ) ;
#252 = APPROVAL_DATE_TIME ( #250, #42 ) ;
#253 = CIRCLE ( 'NONE', #27, 6.999999999999999100 ) ;
#254 = CIRCLE ( 'NONE', #9, 5.499999999999998200 ) ;
#255 = VECTOR ( 'NONE', #120, 1000.000000000000000 ) ;
#256 = APPROVAL_DATE_TIME ( #281, #54 ) ;
#257 = ORIENTED_EDGE ( 'NONE', *, *, #13, .T. ) ;
#258 = ORIENTED_EDGE ( 'NONE', *, *, #11, .F. ) ;
#259 = FACE_OUTER_BOUND ( 'NONE', #241, .T. ) ;
#260 = VECTOR ( 'NONE', #126, 1000.000000000000000 ) ;
#261 = VECTOR ( 'NONE', #124, 1000.000000000000000 ) ;
#262 = FACE_OUTER_BOUND ( 'NONE', #283, .T. ) ;
#263 = ORIENTED_EDGE ( 'NONE', *, *, #3, .T. ) ;
#264 = CIRCLE ( 'NONE', #93, 5.499999999999998200 ) ;
#265 = SHAPE_DEFINITION_REPRESENTATION ( #26, #175 ) ;
#266 =( GEOMETRIC_REPRESENTATION_CONTEXT ( 3 ) GLOBAL_UNCERTAINTY_ASSIGNED_CONTEXT ( ( #174 ) ) GLOBAL_UNIT_ASSIGNED_CONTEXT ( ( #165, #141, #58 ) ) REPRESENTATION_CONTEXT ( 'NONE', 'WORKASPACE' ) );
#267 = CONICAL_SURFACE ( 'NONE', #39, 6.500000000000005300, 0.7853981633974415100 ) ;
#268 = VECTOR ( 'NONE', #153, 999.9999999999998900 ) ;
#269 = FACE_BOUND ( 'NONE', #300, .T. ) ;
#270 = LINE ( 'NONE', #144, #268 ) ;
#271 = CONICAL_SURFACE ( 'NONE', #38, 6.500000000000005300, 0.7853981633974415100 ) ;
#272 = VECTOR ( 'NONE', #156, 1000.000000000000000 ) ;
#273 = CYLINDRICAL_SURFACE ( 'NONE', #36, 5.499999999999998200 ) ;
#274 = FACE_OUTER_BOUND ( 'NONE', #313, .T. ) ;
#275 = CONICAL_SURFACE ( 'NONE', #37, 6.999999999999999100, 0.7853981633974473900 ) ;
#276 = CYLINDRICAL_SURFACE ( 'NONE', #35, 6.999999999999999100 ) ;
#277 = APPROVAL_PERSON_ORGANIZATION ( #219, #54, #80 ) ;
#278 = COORDINATED_UNIVERSAL_TIME_OFFSET ( 3, 0, .AHEAD. ) ;
#279 = CALENDAR_DATE ( 2017, 10, 1 ) ;
#280 = LOCAL_TIME ( 19, 21, 37.00000000000000000, #278 ) ;
#281 = DATE_AND_TIME ( #279, #280 ) ;
#282 = CIRCLE ( 'NONE', #28, 6.999999999999999100 ) ;
#283 = EDGE_LOOP ( 'NONE', ( #203, #202, #240, #197 ) ) ;
#284 = ORIENTED_EDGE ( 'NONE', *, *, #20, .T. ) ;
#285 = EDGE_LOOP ( 'NONE', ( #289, #201 ) ) ;
#286 = ORIENTED_EDGE ( 'NONE', *, *, #5, .T. ) ;
#287 = ORIENTED_EDGE ( 'NONE', *, *, #2, .F. ) ;
#288 = ORIENTED_EDGE ( 'NONE', *, *, #2, .T. ) ;
#289 = ORIENTED_EDGE ( 'NONE', *, *, #4, .T. ) ;
#290 = ORIENTED_EDGE ( 'NONE', *, *, #15, .F. ) ;
#291 = CONICAL_SURFACE ( 'NONE', #29, 6.999999999999999100, 0.7853981633974473900 ) ;
#292 = CIRCLE ( 'NONE', #89, 6.500000000000000000 ) ;
#293 = LINE ( 'NONE', #333, #305 ) ;
#294 = CIRCLE ( 'NONE', #6, 6.500000000000005300 ) ;
#295 = CIRCLE ( 'NONE', #1, 6.500000000000005300 ) ;
#296 = VECTOR ( 'NONE', #117, 999.9999999999998900 ) ;
#297 = EDGE_LOOP ( 'NONE', ( #200, #308, #307, #306 ) ) ;
#298 = EDGE_LOOP ( 'NONE', ( #257, #208 ) ) ;
#299 = EDGE_LOOP ( 'NONE', ( #187, #184, #209, #179 ) ) ;
#300 = EDGE_LOOP ( 'NONE', ( #258, #290 ) ) ;
#301 = EDGE_LOOP ( 'NONE', ( #226, #205, #286, #312 ) ) ;
#302 = EDGE_LOOP ( 'NONE', ( #311, #314, #309, #310 ) ) ;
#303 = CLOSED_SHELL ( 'NONE', ( #176, #22, #23, #24, #94, #81, #82, #83, #84, #85 ) ) ;
#304 = EDGE_LOOP ( 'NONE', ( #243, #239, #206, #216 ) ) ;
#305 = VECTOR ( 'NONE', #339, 1000.000000000000000 ) ;
#306 = ORIENTED_EDGE ( 'NONE', *, *, #7, .F. ) ;
#307 = ORIENTED_EDGE ( 'NONE', *, *, #18, .T. ) ;
#308 = ORIENTED_EDGE ( 'NONE', *, *, #3, .F. ) ;
#309 = ORIENTED_EDGE ( 'NONE', *, *, #19, .T. ) ;
#310 = ORIENTED_EDGE ( 'NONE', *, *, #10, .F. ) ;
#311 = ORIENTED_EDGE ( 'NONE', *, *, #91, .F. ) ;
#312 = ORIENTED_EDGE ( 'NONE', *, *, #8, .T. ) ;
#313 = EDGE_LOOP ( 'NONE', ( #263, #288 ) ) ;
#314 = ORIENTED_EDGE ( 'NONE', *, *, #15, .T. ) ;
#315 = VERTEX_POINT ( 'NONE', #163 ) ;
#316 = CARTESIAN_POINT ( 'NONE',  ( 0.0000000000000000000, 0.0000000000000000000, 0.0000000000000000000 ) ) ;
#317 = CARTESIAN_POINT ( 'NONE',  ( 0.0000000000000000000, 0.0000000000000000000, 50.00000000000000000 ) ) ;
#318 = VERTEX_POINT ( 'NONE', #168 ) ;
#319 = MANIFOLD_SOLID_BREP ( 'Ôàñêà1', #303 ) ;
#320 = PRODUCT ( 'Ãèëüçà ìåäíàÿ GT-50-11 (ÃÌ) EKF', 'Ãèëüçà ìåäíàÿ GT-50-11 (ÃÌ) EKF', '', ( #64 ) ) ;
#321 = PERSON ( 'UNSPECIFIED', 'UNSPECIFIED', 'UNSPECIFIED', ('UNSPECIFIED'), ('UNSPECIFIED'), ('UNSPECIFIED') ) ;
#322 = VERTEX_POINT ( 'NONE', #166 ) ;
#323 = VERTEX_POINT ( 'NONE', #169 ) ;
#324 = VERTEX_POINT ( 'NONE', #167 ) ;
#325 = VERTEX_POINT ( 'NONE', #170 ) ;
#326 = VERTEX_POINT ( 'NONE', #160 ) ;
#327 = VERTEX_POINT ( 'NONE', #171 ) ;
#328 = VERTEX_POINT ( 'NONE', #172 ) ;
#329 = VERTEX_POINT ( 'NONE', #173 ) ;
#330 = DIRECTION ( 'NONE',  ( 0.0000000000000000000, 0.0000000000000000000, 1.000000000000000000 ) ) ;
#331 = DIRECTION ( 'NONE',  ( 1.000000000000000000, 0.0000000000000000000, 0.0000000000000000000 ) ) ;
#332 = CARTESIAN_POINT ( 'NONE',  ( 0.0000000000000000000, 0.0000000000000000000, 50.00000000000000000 ) ) ;
#333 = CARTESIAN_POINT ( 'NONE',  ( -6.999999999999999100, 0.0000000000000000000, 50.00000000000000000 ) ) ;
#334 = DIRECTION ( 'NONE',  ( 0.0000000000000000000, 0.0000000000000000000, 1.000000000000000000 ) ) ;
#335 = DIRECTION ( 'NONE',  ( 1.000000000000000000, 0.0000000000000000000, 0.0000000000000000000 ) ) ;
#336 = DIRECTION ( 'NONE',  ( -0.0000000000000000000, -0.0000000000000000000, -1.000000000000000000 ) ) ;
#337 = DIRECTION ( 'NONE',  ( 1.000000000000000000, 0.0000000000000000000, 0.0000000000000000000 ) ) ;
#338 = CARTESIAN_POINT ( 'NONE',  ( 0.0000000000000000000, 0.0000000000000000000, 0.5000000000000004400 ) ) ;
#339 = DIRECTION ( 'NONE',  ( -0.0000000000000000000, -0.0000000000000000000, -1.000000000000000000 ) ) ;
#340 = CARTESIAN_POINT ( 'NONE',  ( 0.0000000000000000000, 0.0000000000000000000, 49.50000000000000000 ) ) ;
#341 = CARTESIAN_POINT ( 'NONE',  ( 0.0000000000000000000, 0.0000000000000000000, 0.0000000000000000000 ) ) ;
#342 = DIRECTION ( 'NONE',  ( 0.0000000000000000000, 0.0000000000000000000, -1.000000000000000000 ) ) ;
#343 = DIRECTION ( 'NONE',  ( 1.000000000000000000, 0.0000000000000000000, 0.0000000000000000000 ) ) ;
#344 = DIRECTION ( 'NONE',  ( -0.0000000000000000000, -0.0000000000000000000, 1.000000000000000000 ) ) ;
#345 = DIRECTION ( 'NONE',  ( 1.000000000000000000, 0.0000000000000000000, 0.0000000000000000000 ) ) ;
#346 = CARTESIAN_POINT ( 'NONE',  ( 0.0000000000000000000, 0.0000000000000000000, 0.0000000000000000000 ) ) ;
#347 = DIRECTION ( 'NONE',  ( 0.0000000000000000000, 0.0000000000000000000, 1.000000000000000000 ) ) ;
#348 = DIRECTION ( 'NONE',  ( 1.000000000000000000, 0.0000000000000000000, 0.0000000000000000000 ) ) ;
#349 = CARTESIAN_POINT ( 'NONE',  ( 0.0000000000000000000, 0.0000000000000000000, 50.00000000000000000 ) ) ;
ENDSEC;
END-ISO-10303-21;
